Esercizi di arpeggio

Di seguito vi propongo la diteggiatura di alcuni arpeggi da eseguire "come se fossero scale".

G MAJOR 7

e|---------------------------------7--10--
B|---------------------------7--8----------
G|---------------------4--7----------------
D|---------------4--5----------------------
A|---------2--5----------------------------
E|---2--3----------------------------------


G MAJOR 7

e|--------------------------------------------14---15--
B|----------------------------------12---15------------
G|------------------------11---12----------------------
D|-------------9----12----------------------------------
A|----9---10--------------------------------------------
E|---------------------------------------------------------


G MINOR 7

e|--------------------------------------3---6----
B|-----------------------------3---6-------------
G|-------------------------3----------------------
D|-----------------3---5-------------------------
A|-------------5----------------------------------
E|----3---6--------------------------------------


G MAJOR 7

e|--------------------------------------------10----13----15-
B|---------------------------------------11----------------------
G|----------------------------10----12-------------------------
D|-----------------------12--------------------------------------
A|-------------10----13----------------------------------------
E|---10---13---------------------------------------------------


Autore : Tiziano

Social Share

Consiglialo su Google!


corso-chitarra.com
on Google+