Pull off - Esercizi

Il pulloff è un'importante tecnica che ogni chitarrista deve saper padroneggiare con maestria, si tratta di una legatura eseguita suonando la nota "legata" con le dita della mano sinistra che si muove sulla tastiera. Di seguito propongo degli esercizi per allenarsi nella tecnica.
La notazione "p" sta ad indicare che la nota che viene subito dopo va legata alla nota che viene subito prima con il pulloff

Hot line 1

e|--------------------------------------------------------------------------------------------
G|-15p12----12----15p12--17p12----12---15p12---17p12------12---
D|-------14--------------------14--------------------14---------------------------------
A|--------------------------------------------------------------------------------------------
E|--------------------------------------------------------------------------------------------


--17p12-----12-------------------------------------
--------17------17p12-----12------------------ ---
----------------------16-----15p14p12---12----
--------------------------------------14----------------
----------------------------------------------------------


Autore : Tiziano

Social Share

Consiglialo su Google!


corso-chitarra.com
on Google+